ISO-10303-21;
HEADER;
FILE_DESCRIPTION (( 'STEP AP203' ),
    '1' );
FILE_NAME ('QB-CTZQWP-38.1-780-M.STEP',
    '2020-12-24T01:52:12',
    ( '' ),
    ( '' ),
    'SwSTEP 2.0',
    'SolidWorks 2020',
    '' );
FILE_SCHEMA (( 'CONFIG_CONTROL_DESIGN' ));
ENDSEC;

DATA;
#1 = CARTESIAN_POINT ( 'NONE',  ( 3.000000000000000000, 3.110602869834276865E-15, -25.39999999999999858 ) ) ;
#2 = CYLINDRICAL_SURFACE ( 'NONE', #4, 25.39999999999999858 ) ;
#3 = PERSON_AND_ORGANIZATION ( #57, #131 ) ;
#4 = AXIS2_PLACEMENT_3D ( 'NONE', #50, #102, #115 ) ;
#5 = EDGE_CURVE ( 'NONE', #143, #101, #52, .T. ) ;
#6 = LOCAL_TIME ( 9, 52, 12.00000000000000000, #58 ) ;
#7 = CIRCLE ( 'NONE', #166, 25.39999999999999858 ) ;
#8 =( LENGTH_UNIT ( ) NAMED_UNIT ( * ) SI_UNIT ( .MILLI., .METRE. ) );
#9 = AXIS2_PLACEMENT_3D ( 'NONE', #81, #170, #53 ) ;
#10 = APPROVAL ( #140, 'UNSPECIFIED' ) ;
#11 = LOCAL_TIME ( 9, 52, 12.00000000000000000, #62 ) ;
#12 = CALENDAR_DATE ( 2020, 24, 12 ) ;
#13 = MANIFOLD_SOLID_BREP ( 'Ðý×', #92 ) ;
#14 = DIRECTION ( 'NONE',  ( 0.000000000000000000, 0.000000000000000000, 1.000000000000000000 ) ) ;
#15 = PERSON_AND_ORGANIZATION ( #57, #131 ) ;
#16 = DATE_AND_TIME ( #132, #106 ) ;
#17 = EDGE_LOOP ( 'NONE', ( #116, #168 ) ) ;
#18 = PRODUCT_DEFINITION ( 'UNKNOWN', '', #25, #43 ) ;
#19 = VERTEX_POINT ( 'NONE', #136 ) ;
#20 = PLANE ( 'NONE',  #41 ) ;
#21 = LOCAL_TIME ( 9, 52, 12.00000000000000000, #88 ) ;
#22 = CIRCLE ( 'NONE', #26, 25.39999999999999858 ) ;
#23 =( NAMED_UNIT ( * ) SI_UNIT ( $, .STERADIAN. ) SOLID_ANGLE_UNIT ( ) );
#24 = APPROVAL_ROLE ( '' ) ;
#25 = PRODUCT_DEFINITION_FORMATION_WITH_SPECIFIED_SOURCE ( 'ANY', '', #85, .NOT_KNOWN. ) ;
#26 = AXIS2_PLACEMENT_3D ( 'NONE', #71, #33, #14 ) ;
#27 = PRODUCT_DEFINITION_SHAPE ( 'NONE', 'NONE',  #18 ) ;
#28 = CC_DESIGN_DATE_AND_TIME_ASSIGNMENT ( #68, #125, ( #18 ) ) ;
#29 = PERSON_AND_ORGANIZATION ( #57, #131 ) ;
#30 =( GEOMETRIC_REPRESENTATION_CONTEXT ( 3 ) GLOBAL_UNCERTAINTY_ASSIGNED_CONTEXT ( ( #124 ) ) GLOBAL_UNIT_ASSIGNED_CONTEXT ( ( #8, #104, #23 ) ) REPRESENTATION_CONTEXT ( 'NONE', 'WORKASPACE' ) );
#31 = COORDINATED_UNIVERSAL_TIME_OFFSET ( 8, 0, .AHEAD. ) ;
#32 = AXIS2_PLACEMENT_3D ( 'NONE', #119, #118, #171 ) ;
#33 = DIRECTION ( 'NONE',  ( -1.000000000000000000, -0.000000000000000000, -0.000000000000000000 ) ) ;
#34 = DIRECTION ( 'NONE',  ( 0.000000000000000000, 0.000000000000000000, 1.000000000000000000 ) ) ;
#35 = SHAPE_DEFINITION_REPRESENTATION ( #27, #148 ) ;
#36 = APPROVAL_ROLE ( '' ) ;
#37 = CC_DESIGN_PERSON_AND_ORGANIZATION_ASSIGNMENT ( #113, #128, ( #25 ) ) ;
#38 = VERTEX_POINT ( 'NONE', #1 ) ;
#39 = ORIENTED_EDGE ( 'NONE', *, *, #97, .F. ) ;
#40 = CARTESIAN_POINT ( 'NONE',  ( 3.000000000000001332, 19.05000000000000071, 0.000000000000000000 ) ) ;
#41 = AXIS2_PLACEMENT_3D ( 'NONE', #40, #91, #144 ) ;
#42 = EDGE_CURVE ( 'NONE', #38, #101, #137, .T. ) ;
#43 = DESIGN_CONTEXT ( 'detailed design', #142, 'design' ) ;
#44 = APPROVAL_STATUS ( 'not_yet_approved' ) ;
#45 = DIRECTION ( 'NONE',  ( 0.000000000000000000, 0.000000000000000000, 1.000000000000000000 ) ) ;
#46 = EDGE_CURVE ( 'NONE', #19, #143, #112, .T. ) ;
#47 = PERSON_AND_ORGANIZATION_ROLE ( 'classification_officer' ) ;
#48 = AXIS2_PLACEMENT_3D ( 'NONE', #123, #160, #94 ) ;
#49 = ORIENTED_EDGE ( 'NONE', *, *, #97, .T. ) ;
#50 = CARTESIAN_POINT ( 'NONE',  ( -1.614212418857619014, 0.000000000000000000, 0.000000000000000000 ) ) ;
#51 = ORIENTED_EDGE ( 'NONE', *, *, #46, .F. ) ;
#52 = CIRCLE ( 'NONE', #151, 25.39999999999999858 ) ;
#53 = DIRECTION ( 'NONE',  ( 0.000000000000000000, 0.000000000000000000, -1.000000000000000000 ) ) ;
#54 = CYLINDRICAL_SURFACE ( 'NONE', #32, 25.39999999999999858 ) ;
#55 = EDGE_CURVE ( 'NONE', #38, #19, #7, .T. ) ;
#56 = PERSON_AND_ORGANIZATION_ROLE ( 'creator' ) ;
#57 = PERSON ( 'UNSPECIFIED', 'UNSPECIFIED', 'UNSPECIFIED', ('UNSPECIFIED'), ('UNSPECIFIED'), ('UNSPECIFIED') ) ;
#58 = COORDINATED_UNIVERSAL_TIME_OFFSET ( 8, 0, .AHEAD. ) ;
#59 = CARTESIAN_POINT ( 'NONE',  ( -1.614212418857619014, 3.110602869834276865E-15, -25.39999999999999858 ) ) ;
#60 = APPROVAL ( #44, 'UNSPECIFIED' ) ;
#61 = DIRECTION ( 'NONE',  ( -1.000000000000000000, -0.000000000000000000, -0.000000000000000000 ) ) ;
#62 = COORDINATED_UNIVERSAL_TIME_OFFSET ( 8, 0, .AHEAD. ) ;
#63 = DATE_AND_TIME ( #138, #11 ) ;
#64 = EDGE_LOOP ( 'NONE', ( #158, #49 ) ) ;
#65 = EDGE_LOOP ( 'NONE', ( #167, #103, #141, #51 ) ) ;
#66 = CARTESIAN_POINT ( 'NONE',  ( -3.000000000000000000, 0.000000000000000000, 25.39999999999999858 ) ) ;
#67 = CC_DESIGN_APPROVAL ( #10, ( #96 ) ) ;
#68 = DATE_AND_TIME ( #12, #72 ) ;
#69 = APPROVAL_DATE_TIME ( #95, #60 ) ;
#70 = DIRECTION ( 'NONE',  ( 0.000000000000000000, 0.000000000000000000, 1.000000000000000000 ) ) ;
#71 = CARTESIAN_POINT ( 'NONE',  ( 3.000000000000000000, 0.000000000000000000, 0.000000000000000000 ) ) ;
#72 = LOCAL_TIME ( 9, 52, 12.00000000000000000, #31 ) ;
#73 = PERSON_AND_ORGANIZATION_ROLE ( 'design_supplier' ) ;
#74 = APPROVAL_DATE_TIME ( #114, #10 ) ;
#75 = EDGE_LOOP ( 'NONE', ( #129, #162, #89, #39 ) ) ;
#76 = APPLICATION_CONTEXT ( 'configuration controlled 3d designs of mechanical parts and assemblies' ) ;
#77 = FACE_OUTER_BOUND ( 'NONE', #64, .T. ) ;
#78 = CC_DESIGN_APPROVAL ( #60, ( #18 ) ) ;
#79 = VECTOR ( 'NONE', #163, 1000.000000000000000 ) ;
#80 = COORDINATED_UNIVERSAL_TIME_OFFSET ( 8, 0, .AHEAD. ) ;
#81 = CARTESIAN_POINT ( 'NONE',  ( -3.000000000000001332, 19.05000000000000071, 0.000000000000000000 ) ) ;
#82 = APPROVAL_ROLE ( '' ) ;
#83 = APPLICATION_PROTOCOL_DEFINITION ( 'international standard', 'config_control_design', 1994, #76 ) ;
#84 = CARTESIAN_POINT ( 'NONE',  ( -3.000000000000000000, 0.000000000000000000, 0.000000000000000000 ) ) ;
#85 = PRODUCT ( 'QB-CTZQWP-38.1-780-M', 'QB-CTZQWP-38.1-780-M', '', ( #107 ) ) ;
#86 = DIRECTION ( 'NONE',  ( -1.000000000000000000, -0.000000000000000000, -0.000000000000000000 ) ) ;
#87 = APPROVAL_DATE_TIME ( #16, #159 ) ;
#88 = COORDINATED_UNIVERSAL_TIME_OFFSET ( 8, 0, .AHEAD. ) ;
#89 = ORIENTED_EDGE ( 'NONE', *, *, #46, .T. ) ;
#90 = CC_DESIGN_PERSON_AND_ORGANIZATION_ASSIGNMENT ( #3, #47, ( #96 ) ) ;
#91 = DIRECTION ( 'NONE',  ( -1.000000000000000000, 0.000000000000000000, -0.000000000000000000 ) ) ;
#92 = CLOSED_SHELL ( 'NONE', ( #154, #121, #117, #133 ) ) ;
#93 = FACE_OUTER_BOUND ( 'NONE', #65, .T. ) ;
#94 = DIRECTION ( 'NONE',  ( 1.000000000000000000, 0.000000000000000000, 0.000000000000000000 ) ) ;
#95 = DATE_AND_TIME ( #174, #6 ) ;
#96 = SECURITY_CLASSIFICATION ( '', '', #165 ) ;
#97 = EDGE_CURVE ( 'NONE', #101, #143, #156, .T. ) ;
#98 = DIRECTION ( 'NONE',  ( -1.000000000000000000, -0.000000000000000000, -0.000000000000000000 ) ) ;
#99 = DATE_TIME_ROLE ( 'classification_date' ) ;
#100 = VECTOR ( 'NONE', #61, 1000.000000000000000 ) ;
#101 = VERTEX_POINT ( 'NONE', #164 ) ;
#102 = DIRECTION ( 'NONE',  ( -1.000000000000000000, -0.000000000000000000, -0.000000000000000000 ) ) ;
#103 = ORIENTED_EDGE ( 'NONE', *, *, #42, .T. ) ;
#104 =( NAMED_UNIT ( * ) PLANE_ANGLE_UNIT ( ) SI_UNIT ( $, .RADIAN. ) );
#105 = EDGE_CURVE ( 'NONE', #19, #38, #22, .T. ) ;
#106 = LOCAL_TIME ( 9, 52, 12.00000000000000000, #80 ) ;
#107 = MECHANICAL_CONTEXT ( 'NONE', #76, 'mechanical' ) ;
#108 = APPROVAL_STATUS ( 'not_yet_approved' ) ;
#109 = CC_DESIGN_SECURITY_CLASSIFICATION ( #96, ( #25 ) ) ;
#110 = CARTESIAN_POINT ( 'NONE',  ( -1.614212418857619014, 0.000000000000000000, 25.39999999999999858 ) ) ;
#111 = CALENDAR_DATE ( 2020, 24, 12 ) ;
#112 = LINE ( 'NONE', #110, #79 ) ;
#113 = PERSON_AND_ORGANIZATION ( #57, #131 ) ;
#114 = DATE_AND_TIME ( #111, #21 ) ;
#115 = DIRECTION ( 'NONE',  ( 0.000000000000000000, 0.000000000000000000, 1.000000000000000000 ) ) ;
#116 = ORIENTED_EDGE ( 'NONE', *, *, #105, .F. ) ;
#117 = ADVANCED_FACE ( 'NONE', ( #127 ), #2, .T. ) ;
#118 = DIRECTION ( 'NONE',  ( -1.000000000000000000, -0.000000000000000000, -0.000000000000000000 ) ) ;
#119 = CARTESIAN_POINT ( 'NONE',  ( -1.614212418857619014, 0.000000000000000000, 0.000000000000000000 ) ) ;
#120 = CC_DESIGN_DATE_AND_TIME_ASSIGNMENT ( #63, #99, ( #96 ) ) ;
#121 = ADVANCED_FACE ( 'NONE', ( #157 ), #20, .F. ) ;
#122 = PERSON_AND_ORGANIZATION_ROLE ( 'design_owner' ) ;
#123 = CARTESIAN_POINT ( 'NONE',  ( 0.000000000000000000, 0.000000000000000000, 0.000000000000000000 ) ) ;
#124 = UNCERTAINTY_MEASURE_WITH_UNIT (LENGTH_MEASURE( 1.000000000000000082E-05 ), #8, 'distance_accuracy_value', 'NONE');
#125 = DATE_TIME_ROLE ( 'creation_date' ) ;
#126 = DIRECTION ( 'NONE',  ( -1.000000000000000000, -0.000000000000000000, -0.000000000000000000 ) ) ;
#127 = FACE_OUTER_BOUND ( 'NONE', #75, .T. ) ;
#128 = PERSON_AND_ORGANIZATION_ROLE ( 'creator' ) ;
#129 = ORIENTED_EDGE ( 'NONE', *, *, #42, .F. ) ;
#130 = PLANE ( 'NONE',  #9 ) ;
#131 = ORGANIZATION ( 'UNSPECIFIED', 'UNSPECIFIED', '' ) ;
#132 = CALENDAR_DATE ( 2020, 24, 12 ) ;
#133 = ADVANCED_FACE ( 'NONE', ( #77 ), #130, .F. ) ;
#134 = PERSON_AND_ORGANIZATION ( #57, #131 ) ;
#135 = PERSON_AND_ORGANIZATION ( #57, #131 ) ;
#136 = CARTESIAN_POINT ( 'NONE',  ( 3.000000000000000000, 0.000000000000000000, 25.39999999999999858 ) ) ;
#137 = LINE ( 'NONE', #59, #100 ) ;
#138 = CALENDAR_DATE ( 2020, 24, 12 ) ;
#139 = PRODUCT_RELATED_PRODUCT_CATEGORY ( 'detail', '', ( #85 ) ) ;
#140 = APPROVAL_STATUS ( 'not_yet_approved' ) ;
#141 = ORIENTED_EDGE ( 'NONE', *, *, #5, .F. ) ;
#142 = APPLICATION_CONTEXT ( 'configuration controlled 3d designs of mechanical parts and assemblies' ) ;
#143 = VERTEX_POINT ( 'NONE', #66 ) ;
#144 = DIRECTION ( 'NONE',  ( -0.000000000000000000, 0.000000000000000000, 1.000000000000000000 ) ) ;
#145 = CC_DESIGN_PERSON_AND_ORGANIZATION_ASSIGNMENT ( #29, #122, ( #85 ) ) ;
#146 = CC_DESIGN_PERSON_AND_ORGANIZATION_ASSIGNMENT ( #15, #73, ( #25 ) ) ;
#147 = APPROVAL_PERSON_ORGANIZATION ( #155, #10, #36 ) ;
#148 = ADVANCED_BREP_SHAPE_REPRESENTATION ( 'QB-CTZQWP-38.1-780-M', ( #13, #48 ), #30 ) ;
#149 = PERSON_AND_ORGANIZATION ( #57, #131 ) ;
#150 = APPROVAL_PERSON_ORGANIZATION ( #135, #60, #82 ) ;
#151 = AXIS2_PLACEMENT_3D ( 'NONE', #84, #126, #70 ) ;
#152 = CARTESIAN_POINT ( 'NONE',  ( 3.000000000000000000, 0.000000000000000000, 0.000000000000000000 ) ) ;
#153 = CARTESIAN_POINT ( 'NONE',  ( -3.000000000000000000, 0.000000000000000000, 0.000000000000000000 ) ) ;
#154 = ADVANCED_FACE ( 'NONE', ( #93 ), #54, .T. ) ;
#155 = PERSON_AND_ORGANIZATION ( #57, #131 ) ;
#156 = CIRCLE ( 'NONE', #175, 25.39999999999999858 ) ;
#157 = FACE_OUTER_BOUND ( 'NONE', #17, .T. ) ;
#158 = ORIENTED_EDGE ( 'NONE', *, *, #5, .T. ) ;
#159 = APPROVAL ( #108, 'UNSPECIFIED' ) ;
#160 = DIRECTION ( 'NONE',  ( 0.000000000000000000, 0.000000000000000000, 1.000000000000000000 ) ) ;
#161 = APPLICATION_PROTOCOL_DEFINITION ( 'international standard', 'config_control_design', 1994, #142 ) ;
#162 = ORIENTED_EDGE ( 'NONE', *, *, #55, .T. ) ;
#163 = DIRECTION ( 'NONE',  ( -1.000000000000000000, -0.000000000000000000, -0.000000000000000000 ) ) ;
#164 = CARTESIAN_POINT ( 'NONE',  ( -3.000000000000000000, 3.110602869834276865E-15, -25.39999999999999858 ) ) ;
#165 = SECURITY_CLASSIFICATION_LEVEL ( 'unclassified' ) ;
#166 = AXIS2_PLACEMENT_3D ( 'NONE', #152, #98, #45 ) ;
#167 = ORIENTED_EDGE ( 'NONE', *, *, #105, .T. ) ;
#168 = ORIENTED_EDGE ( 'NONE', *, *, #55, .F. ) ;
#169 = APPROVAL_PERSON_ORGANIZATION ( #134, #159, #24 ) ;
#170 = DIRECTION ( 'NONE',  ( 1.000000000000000000, 0.000000000000000000, 0.000000000000000000 ) ) ;
#171 = DIRECTION ( 'NONE',  ( 0.000000000000000000, 0.000000000000000000, 1.000000000000000000 ) ) ;
#172 = CC_DESIGN_PERSON_AND_ORGANIZATION_ASSIGNMENT ( #149, #56, ( #18 ) ) ;
#173 = CC_DESIGN_APPROVAL ( #159, ( #25 ) ) ;
#174 = CALENDAR_DATE ( 2020, 24, 12 ) ;
#175 = AXIS2_PLACEMENT_3D ( 'NONE', #153, #86, #34 ) ;
ENDSEC;
END-ISO-10303-21;
